ISO-10303-21;
HEADER;
FILE_DESCRIPTION (( 'STEP AP203' ),
    '1' );
FILE_NAME ('REV-21-2085.STEP',
    '2022-04-27T19:39:14',
    ( '' ),
    ( '' ),
    'SwSTEP 2.0',
    'SolidWorks 2022',
    '' );
FILE_SCHEMA (( 'CONFIG_CONTROL_DESIGN' ));
ENDSEC;

DATA;
#1 = PERSON_AND_ORGANIZATION ( #54, #195 ) ;
#2 = VERTEX_POINT ( 'NONE', #238 ) ;
#3 = AXIS2_PLACEMENT_3D ( 'NONE', #69, #228, #164 ) ;
#4 = ORIENTED_EDGE ( 'NONE', *, *, #174, .F. ) ;
#5 = FACE_OUTER_BOUND ( 'NONE', #221, .T. ) ;
#6 = CARTESIAN_POINT ( 'NONE',  ( 0.06249999999999995143, 0.1875000000000000278, 0.000000000000000000 ) ) ;
#7 = CIRCLE ( 'NONE', #128, 0.1875000000000000278 ) ;
#8 = SECURITY_CLASSIFICATION ( '', '', #250 ) ;
#9 = DIRECTION ( 'NONE',  ( 0.000000000000000000, 0.000000000000000000, 1.000000000000000000 ) ) ;
#10 = FACE_OUTER_BOUND ( 'NONE', #80, .T. ) ;
#11 = DIRECTION ( 'NONE',  ( 0.000000000000000000, 0.000000000000000000, 1.000000000000000000 ) ) ;
#12 = CIRCLE ( 'NONE', #155, 0.09842519685039370636 ) ;
#13 = APPROVAL_ROLE ( '' ) ;
#14 = AXIS2_PLACEMENT_3D ( 'NONE', #242, #109, #48 ) ;
#15 = LINE ( 'NONE', #213, #46 ) ;
#16 = COORDINATED_UNIVERSAL_TIME_OFFSET ( 6, 0, .BEHIND. ) ;
#17 = EDGE_LOOP ( 'NONE', ( #119, #115, #236, #63 ) ) ;
#18 =( GEOMETRIC_REPRESENTATION_CONTEXT ( 3 ) GLOBAL_UNCERTAINTY_ASSIGNED_CONTEXT ( ( #217 ) ) GLOBAL_UNIT_ASSIGNED_CONTEXT ( ( #147, #214, #167 ) ) REPRESENTATION_CONTEXT ( 'NONE', 'WORKASPACE' ) );
#19 = EDGE_CURVE ( 'NONE', #136, #2, #209, .T. ) ;
#20 = PERSON_AND_ORGANIZATION_ROLE ( 'design_supplier' ) ;
#21 = ORIENTED_EDGE ( 'NONE', *, *, #187, .T. ) ;
#22 = DATE_AND_TIME ( #154, #159 ) ;
#23 = PERSON_AND_ORGANIZATION ( #54, #195 ) ;
#24 = CC_DESIGN_PERSON_AND_ORGANIZATION_ASSIGNMENT ( #188, #149, ( #196 ) ) ;
#25 = ORIENTED_EDGE ( 'NONE', *, *, #137, .T. ) ;
#26 = CC_DESIGN_SECURITY_CLASSIFICATION ( #8, ( #132 ) ) ;
#27 = DIRECTION ( 'NONE',  ( 0.000000000000000000, 0.000000000000000000, 1.000000000000000000 ) ) ;
#28 = DIRECTION ( 'NONE',  ( 0.000000000000000000, 0.000000000000000000, 1.000000000000000000 ) ) ;
#29 = CARTESIAN_POINT ( 'NONE',  ( -0.06249999999999995143, 0.1875000000000000278, 0.000000000000000000 ) ) ;
#30 = AXIS2_PLACEMENT_3D ( 'NONE', #203, #185, #27 ) ;
#31 = DIRECTION ( 'NONE',  ( -1.000000000000000000, -0.000000000000000000, -0.000000000000000000 ) ) ;
#32 = CARTESIAN_POINT ( 'NONE',  ( -0.06249999999999995143, 0.000000000000000000, 0.000000000000000000 ) ) ;
#33 = DIRECTION ( 'NONE',  ( -1.000000000000000000, -0.000000000000000000, -0.000000000000000000 ) ) ;
#34 = CLOSED_SHELL ( 'NONE', ( #51, #127, #106, #97, #93, #120 ) ) ;
#35 = CARTESIAN_POINT ( 'NONE',  ( -0.06249999999999995143, 0.000000000000000000, 0.1875000000000000278 ) ) ;
#36 = MANIFOLD_SOLID_BREP ( 'Revolve1', #34 ) ;
#37 = COORDINATED_UNIVERSAL_TIME_OFFSET ( 6, 0, .BEHIND. ) ;
#38 = PERSON_AND_ORGANIZATION ( #54, #195 ) ;
#39 = SHAPE_DEFINITION_REPRESENTATION ( #44, #189 ) ;
#40 = CALENDAR_DATE ( 2022, 27, 4 ) ;
#41 = ORIENTED_EDGE ( 'NONE', *, *, #67, .T. ) ;
#42 = ORIENTED_EDGE ( 'NONE', *, *, #123, .F. ) ;
#43 = CC_DESIGN_PERSON_AND_ORGANIZATION_ASSIGNMENT ( #38, #194, ( #8 ) ) ;
#44 = PRODUCT_DEFINITION_SHAPE ( 'NONE', 'NONE',  #74 ) ;
#45 = CARTESIAN_POINT ( 'NONE',  ( 0.06249999999999995143, 0.000000000000000000, 0.1875000000000000278 ) ) ;
#46 = VECTOR ( 'NONE', #190, 39.37007874015748143 ) ;
#47 = CARTESIAN_POINT ( 'NONE',  ( -0.06249999999999995143, 0.000000000000000000, 0.000000000000000000 ) ) ;
#48 = DIRECTION ( 'NONE',  ( 0.000000000000000000, 0.000000000000000000, 1.000000000000000000 ) ) ;
#49 = FACE_OUTER_BOUND ( 'NONE', #101, .T. ) ;
#50 = FACE_BOUND ( 'NONE', #220, .T. ) ;
#51 = ADVANCED_FACE ( 'NONE', ( #166 ), #130, .T. ) ;
#52 = DIMENSIONAL_EXPONENTS ( 1.000000000000000000, 0.000000000000000000, 0.000000000000000000, 0.000000000000000000, 0.000000000000000000, 0.000000000000000000, 0.000000000000000000 ) ;
#53 = DIRECTION ( 'NONE',  ( 1.000000000000000000, 0.000000000000000000, 0.000000000000000000 ) ) ;
#54 = PERSON ( 'UNSPECIFIED', 'UNSPECIFIED', 'UNSPECIFIED', ('UNSPECIFIED'), ('UNSPECIFIED'), ('UNSPECIFIED') ) ;
#55 = APPROVAL_STATUS ( 'not_yet_approved' ) ;
#56 = AXIS2_PLACEMENT_3D ( 'NONE', #32, #140, #226 ) ;
#57 = DIRECTION ( 'NONE',  ( -1.000000000000000000, -0.000000000000000000, -0.000000000000000000 ) ) ;
#58 = DATE_TIME_ROLE ( 'creation_date' ) ;
#59 = PERSON_AND_ORGANIZATION ( #54, #195 ) ;
#60 = AXIS2_PLACEMENT_3D ( 'NONE', #6, #222, #180 ) ;
#61 = ORIENTED_EDGE ( 'NONE', *, *, #112, .T. ) ;
#62 = EDGE_LOOP ( 'NONE', ( #81, #177 ) ) ;
#63 = ORIENTED_EDGE ( 'NONE', *, *, #187, .F. ) ;
#64 = VERTEX_POINT ( 'NONE', #110 ) ;
#65 = DIRECTION ( 'NONE',  ( -1.000000000000000000, -0.000000000000000000, -0.000000000000000000 ) ) ;
#66 = CARTESIAN_POINT ( 'NONE',  ( 0.06249999999999995143, 0.000000000000000000, 0.000000000000000000 ) ) ;
#67 = EDGE_CURVE ( 'NONE', #98, #199, #7, .T. ) ;
#68 = DIRECTION ( 'NONE',  ( 1.000000000000000000, 0.000000000000000000, 0.000000000000000000 ) ) ;
#69 = CARTESIAN_POINT ( 'NONE',  ( -0.06249999999999995143, 0.000000000000000000, 0.000000000000000000 ) ) ;
#70 = LINE ( 'NONE', #146, #91 ) ;
#71 =( LENGTH_UNIT ( ) NAMED_UNIT ( * ) SI_UNIT ( $, .METRE. ) );
#72 = CALENDAR_DATE ( 2022, 27, 4 ) ;
#73 = APPROVAL_DATE_TIME ( #210, #83 ) ;
#74 = PRODUCT_DEFINITION ( 'UNKNOWN', '', #132, #176 ) ;
#75 = APPROVAL_ROLE ( '' ) ;
#76 = CC_DESIGN_PERSON_AND_ORGANIZATION_ASSIGNMENT ( #200, #198, ( #132 ) ) ;
#77 = ORIENTED_EDGE ( 'NONE', *, *, #237, .T. ) ;
#78 = ORIENTED_EDGE ( 'NONE', *, *, #174, .T. ) ;
#79 = APPROVAL_PERSON_ORGANIZATION ( #1, #233, #75 ) ;
#80 = EDGE_LOOP ( 'NONE', ( #138, #197, #25, #4 ) ) ;
#81 = ORIENTED_EDGE ( 'NONE', *, *, #67, .F. ) ;
#82 = CARTESIAN_POINT ( 'NONE',  ( 0.06249999999999995143, 0.000000000000000000, 0.09842519685039370636 ) ) ;
#83 = APPROVAL ( #55, 'UNSPECIFIED' ) ;
#84 = APPROVAL_PERSON_ORGANIZATION ( #234, #83, #171 ) ;
#85 = LINE ( 'NONE', #163, #151 ) ;
#86 = AXIS2_PLACEMENT_3D ( 'NONE', #153, #229, #53 ) ;
#87 = CYLINDRICAL_SURFACE ( 'NONE', #113, 0.1875000000000000278 ) ;
#88 = CARTESIAN_POINT ( 'NONE',  ( -0.06249999999999995143, 0.000000000000000000, 0.000000000000000000 ) ) ;
#89 = APPROVAL ( #114, 'UNSPECIFIED' ) ;
#90 = DIRECTION ( 'NONE',  ( -1.000000000000000000, -0.000000000000000000, -0.000000000000000000 ) ) ;
#91 = VECTOR ( 'NONE', #90, 39.37007874015748143 ) ;
#92 = CARTESIAN_POINT ( 'NONE',  ( 0.06249999999999995143, 1.205361022782828035E-17, -0.09842519685039370636 ) ) ;
#93 = ADVANCED_FACE ( 'NONE', ( #144, #105 ), #162, .F. ) ;
#94 = LENGTH_MEASURE_WITH_UNIT ( LENGTH_MEASURE( 0.02539999999999999897 ), #71 );
#95 = APPROVAL_PERSON_ORGANIZATION ( #134, #89, #13 ) ;
#96 = CARTESIAN_POINT ( 'NONE',  ( 0.06249999999999995143, 0.000000000000000000, 0.000000000000000000 ) ) ;
#97 = ADVANCED_FACE ( 'NONE', ( #5 ), #184, .F. ) ;
#98 = VERTEX_POINT ( 'NONE', #45 ) ;
#99 = AXIS2_PLACEMENT_3D ( 'NONE', #246, #57, #133 ) ;
#100 = DATE_TIME_ROLE ( 'classification_date' ) ;
#101 = EDGE_LOOP ( 'NONE', ( #157, #21 ) ) ;
#102 = VERTEX_POINT ( 'NONE', #82 ) ;
#103 = ORIENTED_EDGE ( 'NONE', *, *, #237, .F. ) ;
#104 = ORIENTED_EDGE ( 'NONE', *, *, #223, .T. ) ;
#105 = FACE_BOUND ( 'NONE', #252, .T. ) ;
#106 = ADVANCED_FACE ( 'NONE', ( #50, #49 ), #125, .F. ) ;
#107 = CARTESIAN_POINT ( 'NONE',  ( -0.06249999999999995143, 0.000000000000000000, 0.09842519685039370636 ) ) ;
#108 = CARTESIAN_POINT ( 'NONE',  ( -0.06249999999999995143, 0.000000000000000000, 0.000000000000000000 ) ) ;
#109 = DIRECTION ( 'NONE',  ( -1.000000000000000000, -0.000000000000000000, -0.000000000000000000 ) ) ;
#110 = CARTESIAN_POINT ( 'NONE',  ( -0.06249999999999995143, 2.296212748401287726E-17, -0.1875000000000000278 ) ) ;
#111 = PERSON_AND_ORGANIZATION_ROLE ( 'creator' ) ;
#112 = EDGE_CURVE ( 'NONE', #199, #64, #124, .T. ) ;
#113 = AXIS2_PLACEMENT_3D ( 'NONE', #186, #243, #11 ) ;
#114 = APPROVAL_STATUS ( 'not_yet_approved' ) ;
#115 = ORIENTED_EDGE ( 'NONE', *, *, #148, .T. ) ;
#116 = ORIENTED_EDGE ( 'NONE', *, *, #137, .F. ) ;
#117 = CC_DESIGN_APPROVAL ( #83, ( #74 ) ) ;
#118 = CC_DESIGN_APPROVAL ( #89, ( #132 ) ) ;
#119 = ORIENTED_EDGE ( 'NONE', *, *, #112, .F. ) ;
#120 = ADVANCED_FACE ( 'NONE', ( #207 ), #87, .T. ) ;
#121 = APPROVAL_DATE_TIME ( #22, #233 ) ;
#122 = ORIENTED_EDGE ( 'NONE', *, *, #235, .F. ) ;
#123 = EDGE_CURVE ( 'NONE', #239, #64, #251, .T. ) ;
#124 = LINE ( 'NONE', #142, #192 ) ;
#125 = PLANE ( 'NONE',  #158 ) ;
#126 = DIRECTION ( 'NONE',  ( -1.000000000000000000, -0.000000000000000000, -0.000000000000000000 ) ) ;
#127 = ADVANCED_FACE ( 'NONE', ( #10 ), #224, .F. ) ;
#128 = AXIS2_PLACEMENT_3D ( 'NONE', #66, #126, #205 ) ;
#129 = DIRECTION ( 'NONE',  ( -1.000000000000000000, -0.000000000000000000, -0.000000000000000000 ) ) ;
#130 = CYLINDRICAL_SURFACE ( 'NONE', #169, 0.1875000000000000278 ) ;
#131 = COORDINATED_UNIVERSAL_TIME_OFFSET ( 6, 0, .BEHIND. ) ;
#132 = PRODUCT_DEFINITION_FORMATION_WITH_SPECIFIED_SOURCE ( 'ANY', '', #196, .NOT_KNOWN. ) ;
#133 = DIRECTION ( 'NONE',  ( 0.000000000000000000, 0.000000000000000000, 1.000000000000000000 ) ) ;
#134 = PERSON_AND_ORGANIZATION ( #54, #195 ) ;
#135 = CALENDAR_DATE ( 2022, 27, 4 ) ;
#136 = VERTEX_POINT ( 'NONE', #107 ) ;
#137 = EDGE_CURVE ( 'NONE', #2, #136, #245, .T. ) ;
#138 = ORIENTED_EDGE ( 'NONE', *, *, #223, .F. ) ;
#139 = CC_DESIGN_DATE_AND_TIME_ASSIGNMENT ( #152, #58, ( #74 ) ) ;
#140 = DIRECTION ( 'NONE',  ( -1.000000000000000000, -0.000000000000000000, -0.000000000000000000 ) ) ;
#141 = AXIS2_PLACEMENT_3D ( 'NONE', #181, #129, #206 ) ;
#142 = CARTESIAN_POINT ( 'NONE',  ( -0.06249999999999995143, 2.296212748401287726E-17, -0.1875000000000000278 ) ) ;
#143 = DIRECTION ( 'NONE',  ( -1.000000000000000000, -0.000000000000000000, -0.000000000000000000 ) ) ;
#144 = FACE_OUTER_BOUND ( 'NONE', #62, .T. ) ;
#145 = CIRCLE ( 'NONE', #141, 0.1875000000000000278 ) ;
#146 = CARTESIAN_POINT ( 'NONE',  ( -0.06249999999999995143, 1.205361022782828035E-17, -0.09842519685039370636 ) ) ;
#147 =( CONVERSION_BASED_UNIT ( 'INCH', #94 ) LENGTH_UNIT ( ) NAMED_UNIT ( #52 ) );
#148 = EDGE_CURVE ( 'NONE', #199, #98, #145, .T. ) ;
#149 = PERSON_AND_ORGANIZATION_ROLE ( 'design_owner' ) ;
#150 = CALENDAR_DATE ( 2022, 27, 4 ) ;
#151 = VECTOR ( 'NONE', #225, 39.37007874015748143 ) ;
#152 = DATE_AND_TIME ( #135, #182 ) ;
#153 = CARTESIAN_POINT ( 'NONE',  ( 0.000000000000000000, 0.000000000000000000, 0.000000000000000000 ) ) ;
#154 = CALENDAR_DATE ( 2022, 27, 4 ) ;
#155 = AXIS2_PLACEMENT_3D ( 'NONE', #96, #33, #249 ) ;
#156 = ORIENTED_EDGE ( 'NONE', *, *, #212, .F. ) ;
#157 = ORIENTED_EDGE ( 'NONE', *, *, #123, .T. ) ;
#158 = AXIS2_PLACEMENT_3D ( 'NONE', #29, #68, #241 ) ;
#159 = LOCAL_TIME ( 14, 39, 14.00000000000000000, #16 ) ;
#160 = ORIENTED_EDGE ( 'NONE', *, *, #19, .F. ) ;
#161 = ORIENTED_EDGE ( 'NONE', *, *, #19, .T. ) ;
#162 = PLANE ( 'NONE',  #60 ) ;
#163 = CARTESIAN_POINT ( 'NONE',  ( -0.06249999999999995143, 0.000000000000000000, 0.09842519685039370636 ) ) ;
#164 = DIRECTION ( 'NONE',  ( 0.000000000000000000, 0.000000000000000000, 1.000000000000000000 ) ) ;
#165 = DIRECTION ( 'NONE',  ( 0.000000000000000000, 0.000000000000000000, 1.000000000000000000 ) ) ;
#166 = FACE_OUTER_BOUND ( 'NONE', #201, .T. ) ;
#167 =( NAMED_UNIT ( * ) SI_UNIT ( $, .STERADIAN. ) SOLID_ANGLE_UNIT ( ) );
#168 = APPLICATION_PROTOCOL_DEFINITION ( 'international standard', 'config_control_design', 1994, #211 ) ;
#169 = AXIS2_PLACEMENT_3D ( 'NONE', #88, #65, #9 ) ;
#170 = LOCAL_TIME ( 14, 39, 14.00000000000000000, #172 ) ;
#171 = APPROVAL_ROLE ( '' ) ;
#172 = COORDINATED_UNIVERSAL_TIME_OFFSET ( 6, 0, .BEHIND. ) ;
#173 = CIRCLE ( 'NONE', #99, 0.09842519685039370636 ) ;
#174 = EDGE_CURVE ( 'NONE', #102, #136, #85, .T. ) ;
#175 = CC_DESIGN_APPROVAL ( #233, ( #8 ) ) ;
#176 = DESIGN_CONTEXT ( 'detailed design', #208, 'design' ) ;
#177 = ORIENTED_EDGE ( 'NONE', *, *, #148, .F. ) ;
#178 = CC_DESIGN_PERSON_AND_ORGANIZATION_ASSIGNMENT ( #59, #111, ( #74 ) ) ;
#179 = CIRCLE ( 'NONE', #202, 0.1875000000000000278 ) ;
#180 = DIRECTION ( 'NONE',  ( -0.000000000000000000, 0.000000000000000000, 1.000000000000000000 ) ) ;
#181 = CARTESIAN_POINT ( 'NONE',  ( 0.06249999999999995143, 0.000000000000000000, 0.000000000000000000 ) ) ;
#182 = LOCAL_TIME ( 14, 39, 14.00000000000000000, #37 ) ;
#183 = LOCAL_TIME ( 14, 39, 14.00000000000000000, #247 ) ;
#184 = CYLINDRICAL_SURFACE ( 'NONE', #14, 0.09842519685039370636 ) ;
#185 = DIRECTION ( 'NONE',  ( -1.000000000000000000, -0.000000000000000000, -0.000000000000000000 ) ) ;
#186 = CARTESIAN_POINT ( 'NONE',  ( -0.06249999999999995143, 0.000000000000000000, 0.000000000000000000 ) ) ;
#187 = EDGE_CURVE ( 'NONE', #64, #239, #179, .T. ) ;
#188 = PERSON_AND_ORGANIZATION ( #54, #195 ) ;
#189 = ADVANCED_BREP_SHAPE_REPRESENTATION ( 'REV-21-2085', ( #36, #86 ), #18 ) ;
#190 = DIRECTION ( 'NONE',  ( -1.000000000000000000, -0.000000000000000000, -0.000000000000000000 ) ) ;
#191 = CC_DESIGN_DATE_AND_TIME_ASSIGNMENT ( #216, #100, ( #8 ) ) ;
#192 = VECTOR ( 'NONE', #143, 39.37007874015748143 ) ;
#193 = DATE_AND_TIME ( #150, #183 ) ;
#194 = PERSON_AND_ORGANIZATION_ROLE ( 'classification_officer' ) ;
#195 = ORGANIZATION ( 'UNSPECIFIED', 'UNSPECIFIED', '' ) ;
#196 = PRODUCT ( 'REV-21-2085', 'REV-21-2085', '', ( #248 ) ) ;
#197 = ORIENTED_EDGE ( 'NONE', *, *, #212, .T. ) ;
#198 = PERSON_AND_ORGANIZATION_ROLE ( 'creator' ) ;
#199 = VERTEX_POINT ( 'NONE', #244 ) ;
#200 = PERSON_AND_ORGANIZATION ( #54, #195 ) ;
#201 = EDGE_LOOP ( 'NONE', ( #41, #61, #42, #122 ) ) ;
#202 = AXIS2_PLACEMENT_3D ( 'NONE', #108, #31, #165 ) ;
#203 = CARTESIAN_POINT ( 'NONE',  ( -0.06249999999999995143, 0.000000000000000000, 0.000000000000000000 ) ) ;
#204 = DIRECTION ( 'NONE',  ( -1.000000000000000000, -0.000000000000000000, -0.000000000000000000 ) ) ;
#205 = DIRECTION ( 'NONE',  ( 0.000000000000000000, 0.000000000000000000, 1.000000000000000000 ) ) ;
#206 = DIRECTION ( 'NONE',  ( 0.000000000000000000, 0.000000000000000000, 1.000000000000000000 ) ) ;
#207 = FACE_OUTER_BOUND ( 'NONE', #17, .T. ) ;
#208 = APPLICATION_CONTEXT ( 'configuration controlled 3d designs of mechanical parts and assemblies' ) ;
#209 = CIRCLE ( 'NONE', #56, 0.09842519685039370636 ) ;
#210 = DATE_AND_TIME ( #72, #231 ) ;
#211 = APPLICATION_CONTEXT ( 'configuration controlled 3d designs of mechanical parts and assemblies' ) ;
#212 = EDGE_CURVE ( 'NONE', #218, #2, #70, .T. ) ;
#213 = CARTESIAN_POINT ( 'NONE',  ( -0.06249999999999995143, 0.000000000000000000, 0.1875000000000000278 ) ) ;
#214 =( NAMED_UNIT ( * ) PLANE_ANGLE_UNIT ( ) SI_UNIT ( $, .RADIAN. ) );
#215 = PRODUCT_RELATED_PRODUCT_CATEGORY ( 'detail', '', ( #196 ) ) ;
#216 = DATE_AND_TIME ( #40, #170 ) ;
#217 = UNCERTAINTY_MEASURE_WITH_UNIT (LENGTH_MEASURE( 1.000000000000000082E-05 ), #147, 'distance_accuracy_value', 'NONE');
#218 = VERTEX_POINT ( 'NONE', #92 ) ;
#219 = APPROVAL_STATUS ( 'not_yet_approved' ) ;
#220 = EDGE_LOOP ( 'NONE', ( #160, #116 ) ) ;
#221 = EDGE_LOOP ( 'NONE', ( #156, #103, #78, #161 ) ) ;
#222 = DIRECTION ( 'NONE',  ( -1.000000000000000000, 0.000000000000000000, -0.000000000000000000 ) ) ;
#223 = EDGE_CURVE ( 'NONE', #218, #102, #12, .T. ) ;
#224 = CYLINDRICAL_SURFACE ( 'NONE', #227, 0.09842519685039370636 ) ;
#225 = DIRECTION ( 'NONE',  ( -1.000000000000000000, -0.000000000000000000, -0.000000000000000000 ) ) ;
#226 = DIRECTION ( 'NONE',  ( 0.000000000000000000, 0.000000000000000000, 1.000000000000000000 ) ) ;
#227 = AXIS2_PLACEMENT_3D ( 'NONE', #47, #204, #28 ) ;
#228 = DIRECTION ( 'NONE',  ( -1.000000000000000000, -0.000000000000000000, -0.000000000000000000 ) ) ;
#229 = DIRECTION ( 'NONE',  ( 0.000000000000000000, 0.000000000000000000, 1.000000000000000000 ) ) ;
#230 = APPLICATION_PROTOCOL_DEFINITION ( 'international standard', 'config_control_design', 1994, #208 ) ;
#231 = LOCAL_TIME ( 14, 39, 14.00000000000000000, #131 ) ;
#232 = APPROVAL_DATE_TIME ( #193, #89 ) ;
#233 = APPROVAL ( #219, 'UNSPECIFIED' ) ;
#234 = PERSON_AND_ORGANIZATION ( #54, #195 ) ;
#235 = EDGE_CURVE ( 'NONE', #98, #239, #15, .T. ) ;
#236 = ORIENTED_EDGE ( 'NONE', *, *, #235, .T. ) ;
#237 = EDGE_CURVE ( 'NONE', #102, #218, #173, .T. ) ;
#238 = CARTESIAN_POINT ( 'NONE',  ( -0.06249999999999995143, 1.205361022782828035E-17, -0.09842519685039370636 ) ) ;
#239 = VERTEX_POINT ( 'NONE', #35 ) ;
#240 = CC_DESIGN_PERSON_AND_ORGANIZATION_ASSIGNMENT ( #23, #20, ( #132 ) ) ;
#241 = DIRECTION ( 'NONE',  ( 0.000000000000000000, 0.000000000000000000, -1.000000000000000000 ) ) ;
#242 = CARTESIAN_POINT ( 'NONE',  ( -0.06249999999999995143, 0.000000000000000000, 0.000000000000000000 ) ) ;
#243 = DIRECTION ( 'NONE',  ( -1.000000000000000000, -0.000000000000000000, -0.000000000000000000 ) ) ;
#244 = CARTESIAN_POINT ( 'NONE',  ( 0.06249999999999995143, 2.296212748401287726E-17, -0.1875000000000000278 ) ) ;
#245 = CIRCLE ( 'NONE', #3, 0.09842519685039370636 ) ;
#246 = CARTESIAN_POINT ( 'NONE',  ( 0.06249999999999995143, 0.000000000000000000, 0.000000000000000000 ) ) ;
#247 = COORDINATED_UNIVERSAL_TIME_OFFSET ( 6, 0, .BEHIND. ) ;
#248 = MECHANICAL_CONTEXT ( 'NONE', #211, 'mechanical' ) ;
#249 = DIRECTION ( 'NONE',  ( 0.000000000000000000, 0.000000000000000000, 1.000000000000000000 ) ) ;
#250 = SECURITY_CLASSIFICATION_LEVEL ( 'unclassified' ) ;
#251 = CIRCLE ( 'NONE', #30, 0.1875000000000000278 ) ;
#252 = EDGE_LOOP ( 'NONE', ( #77, #104 ) ) ;
ENDSEC;
END-ISO-10303-21;
